Séville Tabs - Alexandre Therrien Album Gratuit - Alexandre Therrien Leçons Gratuites - Alexandre Therrien

Banque d'exercices

Voicing et Tapping

Ressource Technique - Banque d'exercices
VOICING POUR LES ACCORDS DE "ROCK5D.MP3

Dm - C - Bb - Gm

Les voicing vu en cours... va avec la BT "Rock5D"
A+



Accords Dm:   Accords C:  Accords Bb: Accords Gm:
E---------------------------------------------------------
B--6--10--15--/--5--8---13----/ -3--6--11--/--3--8--11-
G--------------------------------------------------------
D--7--12--15--/--5--10--14---/--3--8--12--/--5--8--12-
A--5--8---12--/--3---7---10---/--1--5--8---/--1--5--10-
E---------------------------------------------------------

Forme de la pièce (% = répéter l'Accord de la mesure précédente) :

4/4 ||: Dm | % | %  | % |
|  C  | % | Dm | % |

| Bb  | Gm | Dm | C |
| Bb  | Gm | Dm | Dm :||

Lire la suite...

 

Alternate Picking

Ressource Technique - Banque d'exercices

Salut Alex! ca va?

Aujourd'hui j'ai pratiquer les trucs pour cette semaine et meme plus. Mais quand je pratiquais ma technique d'alternate picking avec tes exercices en chromatiques, j'ai remarquer que les coups de pick se suivent toujours bien. Donc, j'ai pas trop de difficulté. C'est pour sa que je voulais savoir si c'était possible que tu me "construit" des exercices d'alternate picking, mais que les coups de picks se suivent pas. Sa me forcerais a changer down-up-down genre a chaque cordes. Je sais pas si c'est compréhensif.

Je vais essayer de te faire un exemple.


-----------------------------5-4-5-4-3-2--
---------------5-4-5-4-3-2----------------   etc..
5-4-5-4-3-2-------------------------------

Lire la suite...

 
Qui est en ligne?
12 Professeurs
171 Étudiants
Language
French (Fr)English (United Kingdom)
La Voute



Language
French (Fr)English (United Kingdom)
POUR CONTACTER DIRECTEMENT L'UN DE NOS PROFESSEURS UTILISEZ CE FORMULAIRE:
Pour plus d'informations ou pour une demande d'admission, veuillez cordialement nous soumettre ce formulaire:
Voulez-vous bénéficier de la promotion en cours?
Invalid Input
Nom (*)
Donnée Invalide
Courriel (*)
Donnée Invalide
Code Postal (Important) (*)
Donnée Invalide
Zone (*)
Donnée Invalide
Téléphone (*)
Donnée Invalide
Service demandé: (*)
Donnée Invalide
Programme demandé: (*)
Donnée Invalide
Commentaires ou Questions:
Donnée Invalide