Séville Tabs - Alexandre Therrien Album Gratuit - Alexandre Therrien Leçons Gratuites - Alexandre Therrien

Voicing et Tapping

Ressource Technique - Banque d'exercices
VOICING POUR LES ACCORDS DE "ROCK5D.MP3

Dm - C - Bb - Gm

Les voicing vu en cours... va avec la BT "Rock5D"
A+



Accords Dm:   Accords C:  Accords Bb: Accords Gm:
E---------------------------------------------------------
B--6--10--15--/--5--8---13----/ -3--6--11--/--3--8--11-
G--------------------------------------------------------
D--7--12--15--/--5--10--14---/--3--8--12--/--5--8--12-
A--5--8---12--/--3---7---10---/--1--5--8---/--1--5--10-
E---------------------------------------------------------

Forme de la pièce (% = répéter l'Accord de la mesure précédente) :

4/4 ||: Dm | % | %  | % |
|  C  | % | Dm | % |

| Bb  | Gm | Dm | C |
| Bb  | Gm | Dm | Dm :||

L'idée c'est de taper un accord en plusieurs position. C'est mon video, tu vas comprendre. Je joue par exemple la première position à la main gauche(M.G) et la deuxième en taping (Tap) à la main droite.:

Accords Dm:    
M.G   Tap
E--------------
B--6----10----
G--------------
D--7----12----
A--5-----8----
E--------------

À 0:45 . Avec les changements d'accord et quelques variations dans le tapping.


Pour les voicings, j'ai pas retoucher sa énormément vu que j'ai juste pratiquer 2 heure hier et aujourd'hui. Je me susi concentrer sur l'alternate picking. Mais avant-hier j'ai pratiqué sa et sa allait bien. Des fois à mon école je m'amuse à faire les voicings, j'aime bien la sonorité. J'ai pas essayer en tapping par contre. En fait, je vois pas comment je pourrais faire sa en tapping.
Est-ce que sa donnerait quelque chose dans le genre:

E--------------------------
B------------------6-10-15-
G--------------------------
D----------7-12-15--------
A--5-8-12-----------------
E--------------------------

Environ?

Si non, je comprend pas trop comment je pourrais faire sa. Et si c'est dans ce genre là, faire 7-12 sur le corde de D avec la même main est un peu difficile non?

-Dom

 
Qui est en ligne?
9 Professeurs
99 Étudiants
Language
French (Fr)English (United Kingdom)
La Voute



Language
French (Fr)English (United Kingdom)
POUR CONTACTER DIRECTEMENT L'UN DE NOS PROFESSEURS UTILISEZ CE FORMULAIRE:
Pour plus d'informations ou pour une demande d'admission, veuillez cordialement nous soumettre ce formulaire:
Voulez-vous bénéficier de la promotion en cours?
Invalid Input
Nom (*)
Donnée Invalide
Courriel (*)
Donnée Invalide
Code Postal (Important) (*)
Donnée Invalide
Zone (*)
Donnée Invalide
Téléphone (*)
Donnée Invalide
Service demandé: (*)
Donnée Invalide
Programme demandé: (*)
Donnée Invalide
Commentaires ou Questions:
Donnée Invalide